Ancestry Chart

From Washburn Genealogy
Jump to: navigation, search



1a. Emily Ann Washburn
1b. Kevin Bradley Washburn
|      Viola Nicole Taylor
|            Elizabeth Anne Washburn
1c. Jennifer Lynne Washburn
|      Peter Gerrit Clement
|            Austin Daniel Clement
1d. Jacob Daniel Washburn
|      Melinda Belnap
|            Nathan Daniel Washburn
1e. Amy Catherine Washburn
1f. Scott Andrew Washburn
|      Katelyn Speirs
|----2a. Kevin Edgar Washburn
|--------3a. Ralph Washburn
|------------4a. Andrew Leo Washburn
|----------------5a. John Abraham Washburn
|--------------------6a. Daniel Abraham Washburn
|------------------------7a. Abraham Washburn
|----------------------------8a. Daniel Washburn
|--------------------------------9a. Daniel Washburn
|------------------------------------Same as 9e
|------------------------------------Same as 9f
|--------------------------------9b. Philena Matthews
|------------------------------------10a. Ananias Matthews
|------------------------------------10b. Mary
|----------------------------8b. Nancy Ann Wright
|--------------------------------9c. John Wright
|--------------------------------9d. Ruth Ann Cheesman
|------------------------7b. Tamer Washburn
|----------------------------8c. Jesse Washburn
|--------------------------------9e. Richard Washburn
|------------------------------------10g. John Washburn
|----------------------------------------11m. John Washburn
|--------------------------------------------12y. John Washburn
|------------------------------------------------13aw. William Washburn
|----------------------------------------------------14cs. John Washbourne
|--------------------------------------------------------15gk. John Washbourne
|------------------------------------------------------------16nu. John Washbourne
|----------------------------------------------------------------17. John Washbourne
|--------------------------------------------------------------------18. Norman Washbourne
|------------------------------------------------------------------------19. John Washbourne
|----------------------------------------------------------------------------20. Peter Washbourne
|--------------------------------------------------------------------------------21. John Washbourne
|------------------------------------------------------------------------------------22. Roger de Washbourne
|----------------------------------------------------------------------------------------23. John de Washbourne
|--------------------------------------------------------------------------------------------24. Roger de Washborn
|--------------------------------------------------------------------------------------------24. Joan Temp
|----------------------------------------------------------------------------------------23. Isabelle Cassey or Kassy
|------------------------------------------------------------------------------------22. Margaret
|--------------------------------------------------------------------------------21. Isabelle
|----------------------------------------------------------------------------20. Isolde Hanley
|--------------------------------------------------------------------------------21. Thomas Hanley
|------------------------------------------------------------------------19. Margery or Margaret Le Poher
|----------------------------------------------------------------------------20. John Le Poher
|--------------------------------------------------------------------18. Elizabeth Knivton
|------------------------------------------------------------------------19. Henry Knivton Kynaston
|------------------------------------------------------------16nv. Emme
|--------------------------------------------------------15gl. Jone Whitehead
|----------------------------------------------------14ct. Martha Stevens
|------------------------------------------------13ax. Jane
|--------------------------------------------12z. Mary Butler
|------------------------------------------------13ay. Richard Butler
|----------------------------------------11n. Sarah Cornell
|--------------------------------------------12aa. Richard Cornell
|--------------------------------------------12ab. Elizabeth Jessup
|------------------------------------10h. Hannah Hallet
|----------------------------------------11o. Samuel Hallett
|--------------------------------9f. Amy Birdsall
|------------------------------------10i. Daniel Birdsall
|------------------------------------10j. Johanna Hauxhurst
|----------------------------8d. Susannah Tompkins
|--------------------------------9g. Noah Tompkins
|------------------------------------10k. Thomas Tompkins
|----------------------------------------11u. John Tompkins
|--------------------------------------------12ao. John Tompkins
|------------------------------------------------13cc. John Tompkins
|----------------------------------------------------14fe. Ralph Tompkins
|----------------------------------------------------14ff. Katherine Foster
|------------------------------------------------13cd. Margaret Goodman
|--------------------------------------------12ap. Rebecca Knights
|----------------------------------------11v. Mercy Jones
|--------------------------------------------12aq. James Jones
|------------------------------------10l. Heddy
|--------------------------------9h. Hellenor Underhill
|------------------------------------10m. William Underhill
|------------------------------------10n. Mary Dean
|--------------------6b. Ann Price
|------------------------7c. John Howell Price
|----------------------------8e. Howell Price
|--------------------------------9i. Rees Elice or Ellis
|----------------------------8f. Ann Williams
|--------------------------------9k. John Williams
|--------------------------------9l. Eliza
|------------------------7d. Rachel Jones
|----------------------------8g. Morgan Jones
|----------------------------8h. Hannah Lewis
|----------------5b. Emma Albertine Sandstrom
|--------------------6c. Anders Sandstrom
|------------------------7e. Anders Sandstrom
|----------------------------8i. Thyrs Andersson Sandstrom
|--------------------------------9q. Anders Danielsson
|--------------------------------9r. Kierstin Thyresson
|----------------------------8j. Kerstin Pehrsson
|--------------------------------9s. Pehr Parsson
|------------------------------------10ai. Par Andersson
|------------------------------------10aj. Ingrid Olsson
|----------------------------------------11bs. Olaf
|----------------------------------------11bt. Ingrid Rahlsson
|--------------------------------9t. Kerstin Mathsson
|------------------------------------10ak. Maths Mansson
|----------------------------------------11bu. Mans Hakansson
|------------------------------------10al. Brita Akesson
|----------------------------------------11bw. Ake Svensson
|------------------------7f. Inga Carlson
|----------------------------8k. Carl Andersson
|--------------------------------9u. Anders Andersson
|------------------------------------10am. Anders
|--------------------------------9v. Margareta Johansson
|------------------------------------10ao. Johan
|----------------------------8l. Maria Stephansson
|--------------------------------9w. Stephan Storkersson
|------------------------------------10aq. Storker Stephansson
|--------------------------------9x. Ingeborg Persson
|------------------------------------10as. Per Olufsson
|------------------------------------10at. Sisla Swensson
|--------------------6d. Maria Catharine Sandstrom
|------------------------7g. Sven Andersson Sandstrom
|----------------------------8m. Anders Svensson
|----------------------------8n. Anna Persson
|------------------------7h. Lena Nilsson
|----------------------------8o. Nils Hollingsson
|--------------------------------9ac. Holling Olofsson
|------------------------------------10bc. Olof Andersson
|------------------------------------10bd. Kierstin Hollingsson
|--------------------------------9ad. Gertrud Andersson
|------------------------------------10be. Anders Carlsson
|----------------------------------------11di. Carl Olufsson
|--------------------------------------------12hq. Oluff Jonsson
|--------------------------------------------12hr. Ingrid
|----------------------------------------11dj. Gartrud Andersson
|--------------------------------------------12hs. Anders Larsson
|--------------------------------------------12ht. Karin
|------------------------------------10bf. Anna Nilsson
|----------------------------------------11dk. Nils Pehrsson
|----------------------------8p. Annika Nilsson
|------------4b. Jane Edmunds Anderson
|----------------5c. Ephraim Anderson
|--------------------6e. Peter Christian Anderson
|------------------------7i. Christian Anderson
|----------------------------8q. Anders Jacobsen
|--------------------------------9ag. Jacob Ottesen
|------------------------------------10bk. Otte Jacobsen
|--------------------------------9ah. Kristen Andersdatter
|------------------------------------10bm. Anders Jensen
|------------------------------------10bn. Zidsel Simonsen
|----------------------------8r. Maren Madsdatter
|--------------------------------9ai. Mads Rasmussen
|--------------------------------9aj. Mette Nielsen
|------------------------7j. Anne Kathrine Pedersen
|----------------------------8s. Peder Nielsen
|--------------------------------9ak. Niels Pedersen
|--------------------------------9al. Maren Gundersdatter
|----------------------------8t. Maren Christensen
|--------------------6f. Kirsten Marie Jacobsen
|------------------------7k. Jacob Christensen
|----------------------------8u. Christen Gregersen
|--------------------------------9ao. Gregers Sorensen
|------------------------------------10ca. Soren Sorensen
|--------------------------------9ap. Kirsten Jensen
|----------------------------8v. Maren Larsen
|--------------------------------9aq. Lars Hansen
|------------------------------------10ce. Hans Christensen
|------------------------------------10cf. Mette Larsen
|--------------------------------9ar. Kirsten Nielsen
|------------------------7l. Johanna Govertsen
|----------------------------8w. Govert Poulsen
|--------------------------------9as. Poul Margvardsen
|--------------------------------9at. Ane Jensen
|----------------------------8x. Maren Pedersen
|--------------------------------9au. Peder Neilsen
|--------------------------------9av. Karen Lauritzen
|----------------5d. Eliza Jones Edmunds
|--------------------6g. Nathaniel Edmunds
|------------------------7m. Nathaniel Edmunds
|----------------------------8y. Edmund Edmunds
|--------------------------------9aw. John Edmunds
|--------------------------------9ax. Susannah Garn or Snowshill
|----------------------------8z. Ann Lewis
|------------------------7n. Charlotte Jones
|----------------------------8aa. John Jones
|--------------------------------9ba. Reese Jones
|----------------------------8ab. Charlotte Davies
|--------------------------------9bc. Richard Davies
|--------------------------------9bd. Rebecca Powel
|------------------------------------10de. John Powel
|------------------------------------10df. Mary Beaven
|--------------------6h. Jane Jones
|------------------------7o. David Jones
|----------------------------8ac. John Jones
|----------------------------8ad. Jane Jones
|------------------------7p. Mary Rowlands
|----------------------------8ae. Edward Rowlands
|----------------------------8af. Catherine Morris
|--------3b. Roxey Lou Nelson
|------------4c. Edgar Lyman Nelson
|----------------5e. Augustus Gustave Nelson
|--------------------6i. Hans Nelson
|------------------------7q. Nils Mansson
|----------------------------8ag. Mans Arfvidson
|--------------------------------9bm. Arfvid Person
|--------------------------------9bn. Anna
|----------------------------8ah. Karna or Hanna Akesdotter
|------------------------7r. Ane Katharine Nilson
|----------------------------8ai. Nils Nilsson
|--------------------------------9bq. Nils Trulsson
|------------------------------------10ee. Truls
|--------------------------------9br. Benqta Nilsdotter
|------------------------------------10eg. Nils Persson
|----------------------------------------11jm. Per Nilsson
|----------------------------------------11jn. Elna
|------------------------------------10eh. Karna Ingemarsdotter
|----------------------------------------11jo. Ingemar Atzersson
|----------------------------------------11jp. Inger Persdotter
|----------------------------8aj. Hannah Mansdatter
|--------------------------------9bs. Mans Akesson
|--------------------6j. Olive Dehlin Poulson
|------------------------7s. Ake Palsson
|----------------------------8ak. Pal Akesson Karstrom
|--------------------------------9bu. Ake Jonsson
|------------------------------------10em. Jons Pahlsson
|----------------------------------------11jy. Pahl Nilsson
|--------------------------------------------12uw. Nils
|--------------------------------------------12ux. Hanna Olufsson
|----------------------------------------11jz. Hanna Jonsson
|------------------------------------10en. Bengta Hindriksson
|----------------------------------------11ka. Hindrik Albrektsson
|----------------------------------------11kb. Elna Akesson
|--------------------------------------------12vc. Ake Rasmusson
|--------------------------------------------12vd. Bengta Pedersson
|--------------------------------9bv. Boel Trulsson
|------------------------------------10eo. Truls Pehrsson
|----------------------------------------11kc. Pehr Kionicksson
|--------------------------------------------12ve. Kionick Jonson
|------------------------------------------------13. Jons Kionickson
|----------------------------------------------------14. Konnich Boarp
|------------------------------------------------13. Kirstina
|----------------------------------------11kd. Boel Trulsdotter
|--------------------------------------------12vg. Truls
|------------------------------------10ep. Hanna or Anna Hakansdotter
|----------------------------8al. Boel Andersson
|--------------------------------9bw. Anders Aberg
|--------------------------------9bx. Bengta Hallberg
|------------------------7t. Anna Jonsson
|----------------------------8am. Jons Nilsson
|--------------------------------9by. Nils Jonsson
|--------------------------------9bz. Anna Mansson
|------------------------------------10ew. Mans Jonsson
|----------------------------------------11ks. Jons Nilsson
|----------------------------------------11kt. Anna Mansson
|------------------------------------10ex. Pernilla Persson
|----------------------------------------11ku. Per Persson
|--------------------------------------------12wo. Per Persson
|----------------------------------------11kv. Kristina Jepsson
|--------------------------------------------12wq. Jeppe Gunnarsson
|----------------------------8an. Olive or Olu Bengtsson
|--------------------------------9ca. Bengt Lassasson
|------------------------------------10ey. Lassa Nilsson
|------------------------------------10ez. Karna Matsson
|--------------------------------9cb. Karna Matsson
|----------------5f. Ann Catherine Porter
|--------------------6k. James Buchanan Porter
|------------------------7u. James Porter
|------------------------7v. Mary Elizabeth Buchannon
|----------------------------8aq. James Buchanan
|--------------------------------9cg. James Buchanan
|------------------------------------10fk. Moses Buchanan
|----------------------------------------11lu. John Buchanan
|----------------------------------------11lv. Margaret Forsyth
|------------------------------------10fl. Elizabeth Buchanan
|----------------------------------------11lw. Johne Buchanan
|--------------------------------------------12. George Buchanan
|--------------------------------------------12. Margaret Buchanan
|----------------------------------------11lx. Grizzel Buchanan
|--------------------------------9ch. Jean Buchanan
|------------------------------------10fm. John Buchanan
|----------------------------------------11ly. Johne Buchanan
|----------------------------------------11lz. Euphamie Dale
|------------------------------------10fn. Jean Ure
|----------------------------------------11ma. John Ure
|----------------------------------------11mb. Janet Abercrumbie
|--------------------------------------------12. Robert Abercrumbie
|--------------------------------------------12. (Unknown) Dugall
|----------------------------8ar. Elizabeth Buchanan
|--------------------------------9ci. John Buchanan
|------------------------------------10fo. John Buchanan
|----------------------------------------11mc. John Buchanan
|--------------------------------------------12. Walter Buchanan
|--------------------------------------------12. Agnes Mitchell
|----------------------------------------11md. Elizabeth Grahame
|------------------------------------10fp. Jean McKean
|----------------------------------------11me. John McKean
|----------------------------------------11mf. Izobell Angus
|--------------------------------9cj. Margaret Buchanan
|------------------------------------10fq. John Buchanan
|----------------------------------------11mg. Gilbert Buchanan
|----------------------------------------11mh. Margaret Govan
|------------------------------------10fr. Margaret Buchanan
|----------------------------------------11mi. Archibald Buchanan
|----------------------------------------11mj. Margaret Bowie
|--------------------6l. Mary Ann Leslie
|------------------------7w. Andrew Leslie
|----------------------------8as. Andrew Leslie
|--------------------------------9ci. John Leslie
|--------------------------------9cj. Margaret Butchart
|----------------------------8at. Mary Cuthbert
|--------------------------------9ck. David Cuthbert
|------------------------7x. Ann Thompson
|----------------------------8au. William Thompson
|------------4d. Talula Johanna Frandsen
|----------------5g. Willard Lauritz Frandsen
|--------------------6m. Rasmus Jorgensen Frandsen
|------------------------7y. Frands Jorgensen
|----------------------------8aw. Jorgen Frandsen
|----------------------------8ax. Karen Jeppesdatter
|------------------------7z. Anne Marie Rasmussen
|----------------------------8ay. Rasmus Nielsen
|----------------------------8az. Johanne Marie Andersdatter
|--------------------6n. Anne Margrethe Madsen
|------------------------7aa. Lars Madsen
|----------------------------8ba. Mads Larsen
|----------------------------8bb. Margrethe Jensen
|------------------------7ab. Bodil Nielsen
|----------------------------8bc. Niels Larsen
|----------------------------8bd. Anne Nielsen
|----------------5h. Bothilda Johanna Hansen
|--------------------6o. James Hansen
|------------------------7ac. Hans Jensen
|----------------------------8be. Jens Nielsen
|--------------------------------9di. Niels Olsen
|------------------------------------10ho. Ole Nielsen
|------------------------------------10hp. Dorthe Poulsen
|--------------------------------9dj. Margrethe Jensen
|------------------------------------10hq. Jens Hansen
|------------------------------------10hr. Anne Elizabeth Jocumsen
|----------------------------8bf. Maren Pedersdatter
|--------------------------------9dk.Peder Hansen
|--------------------------------9dl. Johanne Johansen
|------------------------7ad. Anne Kirstine Rasmussen
|----------------------------8bg. Rasmus Hansen
|--------------------------------9dm. Hans Jorgen Rasmussen
|------------------------------------10hw. Rasmus Hansen
|------------------------------------10hx. Kirstine Jensen
|--------------------------------9dn. Benthe Kirstine Nielsen
|----------------------------8bh. Gjertrud Marie Olsen
|--------------------------------9do. Ole Jensen
|------------------------------------10ia. Jens Olsen
|------------------------------------10ib. Gjertrud Nielsen
|--------------------------------9dp. Karen Jensen
|------------------------------------10ic. Jens Jacobsen
|------------------------------------10id. Karen Hansen
|--------------------6p. Johanna Anderson
|------------------------7ae. Andrew Nilsson
|----------------------------8bi. Niles Larsson
|----------------------------8bj. Kerstin Nilsson
|------------------------7af. Boel A. Nilsson Persson
|----------------------------8bk. Per Larsson
|----------------------------8bl. Sissa Akasdotter
|--------------------------------9dw. Ake Martensson
|--------------------------------9dx. Anna Hansdotter
|------------------------------------10is. Hans Pahlsson
|------------------------------------10it. Bolla Nilsdotter
|----2b. Shelley Ann McIlrath
|--------3c. William Daniel McIlrath
|------------4e. William Albert McIlrath
|----------------5i. Frank Alfred McIlrath
|--------------------6q. Albert McIlrath
|------------------------7ag. Michael McIlrath
|----------------------------8cm. Alexander Aikman McIlrath
|--------------------------------9ga. Samuel McIlrath
|------------------------------------10iu. Thomas McIlrath
|------------------------------------10iv. Elizabeth
|--------------------------------9gb. Isabella Aikman
|----------------------------8cn. Rhoda Condit
|--------------------------------9gc. Abner Condit
|--------------------------------9gd. Martha Leonard
|------------------------7ah. Sarah Hollister
|--------------------6r. Hatty Evens
|----------------5j. Ethel May Whitney
|--------------------6s. George Alfred (William A.) Whitney
|------------------------7ak. Samuel Griffin Whitney
|----------------------------8cu. Charles Whitman Whitney
|--------------------------------9gq. Isaiah Whitney
|------------------------------------10ka. Isaiah Whitney
|----------------------------------------11va. Isaiah Whitney
|--------------------------------------------12. Isaiah Whitney
|------------------------------------------------13. Thomas Whitney
|----------------------------------------------------14. John Whitney
|--------------------------------------------------------15. Thomas Whitney
|--------------------------------------------------------15. Mary Bray
|------------------------------------------------------------16. John Bray
|------------------------------------------------------------16. Margaret Haslonde
|----------------------------------------------------14. Elinor
|------------------------------------------------13. Mary Kedell
|--------------------------------------------12. Sarah Woodward
|----------------------------------------11vb. Elizabeth Whitney
|--------------------------------------------12. John Whitney
|------------------------------------------------13. Thomas Whitney
|----------------------------------------------------14. Thomas Whitney
|----------------------------------------------------14. Mary Kedell
|------------------------------------------------13. Elizabeth Lawrence
|--------------------------------------------12. Elizabeth Barnard
|------------------------------------10kb. Persis Randall
|--------------------------------9gr. Dorcus Whitman
|------------------------------------10kc. Charles Whitman
|----------------------------------------11ve. John Whitman
|--------------------------------------------12. Zechariah Whitman
|------------------------------------------------13. John Whitman
|--------------------------------------------12. Sarah Alcock
|------------------------------------------------13. John Alcock
|----------------------------------------11vf. Mary Graves
|------------------------------------10kd. Anna Stevens
|----------------------------8cv. Mary Griffin
|--------------------------------9gs. Samuel Griffin
|--------------------------------9gt. Hannah Bowker
|------------------------7al. Abbie N. Whittemore
|----------------------------8cw. Salmon Whittemore
|----------------------------8cx. Lydia Wheeler
|--------------------6t. Eliza Chandler
|------------------------7am. William Chandler
|------------------------7an. Hannah
|------------4f. Vesta Zenora Hart
|----------------5k. George Cartwright Hart
|--------------------6u. Stephen James Hart
|------------------------7ao. Samuel Cornelius Hart
|----------------------------8dc. Stephen Hart
|----------------------------8dd. Elizabeth Hollister
|------------------------7ap. Sarah Ann Leah
|----------------------------8de. James H Leah
|----------------------------8df. Sarah M Berry
|--------------------6v. Sarah Orgill
|------------------------7aq. Thomas Orgill
|----------------------------8dg. Joseph Orgill
|----------------------------8dh. Sarah Wetton
|------------------------7ar. Ann Cartwright
|----------------------------8di. William Cartwright
|----------------------------8dj. Charlotte Hood
|----------------5l. Amy Belle Porter
|--------------------6w. John President Porter, Jr.
|------------------------7as. John President Porter
|----------------------------8dk. Sanford Porter
|--------------------------------9hw. Nathan Porter
|--------------------------------9hx. Susannah West
|------------------------------------10mo. Thomas West
|----------------------------------------11aaa. William West
|--------------------------------------------12. Francis West
|--------------------------------------------12. Susannah Soule
|------------------------------------------------13. George Soule
|------------------------------------------------13. Mary Beckett
|----------------------------------------11aab. Jane Tanner
|------------------------------------10mp. Susanna Amie Colgrove
|----------------------------8dl. Nancy Warriner
|--------------------------------9hy. Reuben Warriner
|------------------------------------10mq. Reuben Warriner
|----------------------------------------11aae. Benjamin Warriner
|--------------------------------------------12. James Warriner
|------------------------------------------------13. William Warriner
|--------------------------------------------12. Sarah Alvord
|----------------------------------------11aaf. Mercy Bartlette
|------------------------------------10mr. Sarah Willard
|----------------------------------------11aag. Simeon Willard
|--------------------------------------------12. Benjamin Willard
|--------------------------------------------12. Sarah Larkin or Lakin
|------------------------------------------------13. John Lakin
|------------------------------------------------13. Mary Bacon
|----------------------------------------------------14. Michael Bacon
|--------------------------------------------------------15. Michael Bacon
|------------------------------------------------------------16. Michael Bacon
|----------------------------------------------------------------17. John Bacon
|--------------------------------------------------------------------18. Thomas Bacon
|------------------------------------------------------------------------19. John Bacon
|----------------------------------------------------------------------------20. Edmund Bacon
|--------------------------------------------------------------------------------21. John Bacon
|--------------------------------------------------------------------------------21. Margery Thorp
|------------------------------------------------------------------------------------22. John Thorp
|----------------------------------------------------------------------------------------23. William Thorpe
|--------------------------------------------------------------------------------------------24. William Thorpe
|--------------------------------------------------------------------------------------------24. Beatrice Bacon
|------------------------------------------------------------------------------------------------25. (Sir) Roger Bacon
|----------------------------------------11aah. Phoebe Newton
|--------------------------------9hz. Sarah Colton
|------------------------------------10ms. Gideon Colton
|----------------------------------------11aai. Benjamin Colton
|--------------------------------------------12. Isaac Colton
|--------------------------------------------12. Mary Cooper
|----------------------------------------11aaj. Elizabeth Pynchon
|--------------------------------------------12. John Pynchon
|--------------------------------------------12. Bathshua or Bashua Taylor
|------------------------------------10mt. Sarah Burt
|----------------------------------------11aak. David Burt
|--------------------------------------------12. David Burt
|------------------------------------------------13. Nathaniel Burt
|----------------------------------------------------14. Henry Burt
|----------------------------------------------------14. Eulalia Marche
|--------------------------------------------12. Martha Hale
|----------------------------------------11aal. Sarah Colton
|--------------------------------------------12. Mercy Hitchcock
|------------------------7at. Nancy Rich
|----------------------------8dm. Joseph Rich
|----------------------------8dn. Nancy O'Neal
|--------------------6x. Amy Zenora Porter
|------------------------7au. Chauncy Warriner Porter
|----------------------------SAME AS 8dk
|----------------------------SAME AS 8dl
|------------------------7av. Lydia Ann Cook
|--------3d. Betty Ann Bangerter
|------------4g. Eugene Wilford Bangerter
|----------------5m. Johann (John C.) Christian Bangerter
|--------------------6y. Friedrich Bangerter
|------------------------7aw. Johannes Bangerter
|----------------------------8dq. Niklaus Bangerter
|--------------------------------9ii. Bendicht Bangerter
|------------------------------------10nk. Bendicht Bangerter
|------------------------------------10nl. Elisabetha Herrli
|--------------------------------9ij. Maria Burgi
|----------------------------8dr. Anna Loffel
|--------------------------------9ik. Bendicht Loeffel
|--------------------------------9il. Margreth Gaschen
|------------------------7ax. Anna Maria Ellenberger
|----------------------------8ds. Johannes Ellenberger
|--------------------------------9im. Peter Ellenberger
|------------------------------------10. Hans Ellenberger
|----------------------------------------11. Peter Ellenberger
|--------------------------------------------12. Hans Ellenberger
|-------------------------------------------------13. Andres Ellenberger
|-----------------------------------------------------14. Hans Ellenberger
|---------------------------------------------------------15. Ulrich Ellenberger
|----------------------------8dt. Maria Hofer
|--------------------6z. Maria Bangerter
|------------------------7ay. Christian Bangerter
|----------------------------SAME AS 8dq. Niklaus Bangerter
|----------------------------SAME AS 8dr. Anna Loffel
|------------------------7az. Elisabeth Ellenberger
|----------------------------SAME AS 8ds. Johannes Ellenberger
|----------------------------SAME AS 8dt. Maria Hofer
|----------------5n. Katharina Schaff
|--------------------6aa. Phillip (Jakob) Schaff
|------------------------7ba. George Schaff
|----------------------------8du. Johann Georg Schaaf
|----------------------------8dv. Katherina Elisabeth Klohr
|------------------------7bb. Anne Elisabeth Rieling
|--------------------6ab. Sophie Wiedemann
|------------------------7bc. Johann Georg Wiedemann
|----------------------------8dy. Johann George Wiedemann
|----------------------------8dz. Maria Elisabeth Fischer
|------------------------7bd. Anna Maria Herrmann
|----------------------------8ea. Johann Michael Herrmann
|----------------------------8eb. Anna Elis Weintz
|------------4h. Lillian Charlotte Bishop
|----------------5o. Thomas Bishop
|--------------------6ac. Thomas Bishop
|------------------------7be. Jacob Bishop
|------------------------7bf. Margaret Phillips
|--------------------6ad. Eliza Aldridge
|------------------------7bg. Nathaniel Aldridge
|------------------------7bh. Jane Pernell
|----------------5p. Amanda Charlotta Fagerstrom
|--------------------6ae. Erick Carlson Fagerstrom or Larsson
|------------------------7bii. Lars Janson
|------------------------7bij. Anna Carlson
|--------------------6af. Sophia Carlson